ISO-10303-21;
HEADER;
FILE_DESCRIPTION (( 'STEP AP203' ),
    '1' );
FILE_NAME ('QB-CTZHWP-10-852-M.STEP',
    '2020-12-24T01:34:26',
    ( '' ),
    ( '' ),
    'SwSTEP 2.0',
    'SolidWorks 2020',
    '' );
FILE_SCHEMA (( 'CONFIG_CONTROL_DESIGN' ));
ENDSEC;

DATA;
#1 = CARTESIAN_POINT ( 'NONE',  ( -1.614212418857619014, 0.000000000000000000, 5.000000000000000888 ) ) ;
#2 = APPLICATION_PROTOCOL_DEFINITION ( 'international standard', 'config_control_design', 1994, #19 ) ;
#3 =( NAMED_UNIT ( * ) SI_UNIT ( $, .STERADIAN. ) SOLID_ANGLE_UNIT ( ) );
#4 = ORIENTED_EDGE ( 'NONE', *, *, #248, .F. ) ;
#5 = VERTEX_POINT ( 'NONE', #101 ) ;
#6 = DIRECTION ( 'NONE',  ( -1.000000000000000000, -0.000000000000000000, -0.000000000000000000 ) ) ;
#7 = ORIENTED_EDGE ( 'NONE', *, *, #214, .T. ) ;
#8 = LINE ( 'NONE', #105, #267 ) ;
#9 = EDGE_LOOP ( 'NONE', ( #163, #233, #7, #59 ) ) ;
#10 = VECTOR ( 'NONE', #6, 1000.000000000000000 ) ;
#11 = EDGE_CURVE ( 'NONE', #212, #36, #149, .T. ) ;
#12 = AXIS2_PLACEMENT_3D ( 'NONE', #327, #157, #64 ) ;
#13 = CARTESIAN_POINT ( 'NONE',  ( -1.614212418857619014, 0.000000000000000000, 0.000000000000000000 ) ) ;
#14 = DIRECTION ( 'NONE',  ( -1.000000000000000000, 0.000000000000000000, -0.000000000000000000 ) ) ;
#15 = LINE ( 'NONE', #113, #240 ) ;
#16 = ADVANCED_FACE ( 'NONE', ( #57, #290 ), #62, .F. ) ;
#17 = FACE_BOUND ( 'NONE', #22, .T. ) ;
#18 = AXIS2_PLACEMENT_3D ( 'NONE', #255, #202, #139 ) ;
#19 = APPLICATION_CONTEXT ( 'configuration controlled 3d designs of mechanical parts and assemblies' ) ;
#20 = LOCAL_TIME ( 9, 34, 26.00000000000000000, #204 ) ;
#21 = EDGE_LOOP ( 'NONE', ( #144, #117 ) ) ;
#22 = EDGE_LOOP ( 'NONE', ( #140, #156 ) ) ;
#23 = CIRCLE ( 'NONE', #173, 5.000000000000001776 ) ;
#24 = PERSON_AND_ORGANIZATION ( #287, #42 ) ;
#25 = ADVANCED_FACE ( 'NONE', ( #209 ), #323, .F. ) ;
#26 = APPLICATION_PROTOCOL_DEFINITION ( 'international standard', 'config_control_design', 1994, #200 ) ;
#27 = CIRCLE ( 'NONE', #244, 5.000000000000000000 ) ;
#28 = CARTESIAN_POINT ( 'NONE',  ( 3.000000000000000000, 6.123233995736768255E-16, -5.000000000000001776 ) ) ;
#29 = ADVANCED_FACE ( 'NONE', ( #264 ), #43, .F. ) ;
#30 = CC_DESIGN_APPROVAL ( #167, ( #218 ) ) ;
#31 = LINE ( 'NONE', #231, #10 ) ;
#32 = ORIENTED_EDGE ( 'NONE', *, *, #232, .T. ) ;
#33 = FACE_OUTER_BOUND ( 'NONE', #114, .T. ) ;
#34 = DIRECTION ( 'NONE',  ( -1.000000000000000000, -0.000000000000000000, -0.000000000000000000 ) ) ;
#35 = ADVANCED_FACE ( 'NONE', ( #235 ), #138, .F. ) ;
#36 = VERTEX_POINT ( 'NONE', #132 ) ;
#37 = MANIFOLD_SOLID_BREP ( 'Ðý×', #108 ) ;
#38 = DATE_AND_TIME ( #291, #20 ) ;
#39 = DIRECTION ( 'NONE',  ( 0.000000000000000000, 0.000000000000000000, 1.000000000000000000 ) ) ;
#40 = CARTESIAN_POINT ( 'NONE',  ( -3.000000000000000000, 0.000000000000000000, 0.000000000000000000 ) ) ;
#41 = VERTEX_POINT ( 'NONE', #292 ) ;
#42 = ORGANIZATION ( 'UNSPECIFIED', 'UNSPECIFIED', '' ) ;
#43 = CYLINDRICAL_SURFACE ( 'NONE', #179, 5.000000000000000888 ) ;
#44 = ORIENTED_EDGE ( 'NONE', *, *, #180, .F. ) ;
#45 = CC_DESIGN_PERSON_AND_ORGANIZATION_ASSIGNMENT ( #307, #176, ( #153 ) ) ;
#46 = CARTESIAN_POINT ( 'NONE',  ( -1.614212418857619014, 0.000000000000000000, 0.000000000000000000 ) ) ;
#47 = CARTESIAN_POINT ( 'NONE',  ( -3.000000000000000000, 0.000000000000000000, 0.000000000000000000 ) ) ;
#48 = DIRECTION ( 'NONE',  ( -1.000000000000000000, -0.000000000000000000, -0.000000000000000000 ) ) ;
#49 = AXIS2_PLACEMENT_3D ( 'NONE', #128, #182, #254 ) ;
#50 = DATE_AND_TIME ( #275, #304 ) ;
#51 = CC_DESIGN_PERSON_AND_ORGANIZATION_ASSIGNMENT ( #286, #102, ( #253 ) ) ;
#52 = APPROVAL_STATUS ( 'not_yet_approved' ) ;
#53 = FACE_OUTER_BOUND ( 'NONE', #194, .T. ) ;
#54 = AXIS2_PLACEMENT_3D ( 'NONE', #65, #328, #81 ) ;
#55 = CC_DESIGN_PERSON_AND_ORGANIZATION_ASSIGNMENT ( #178, #279, ( #175 ) ) ;
#56 = APPROVAL_ROLE ( '' ) ;
#57 = FACE_OUTER_BOUND ( 'NONE', #260, .T. ) ;
#58 = LINE ( 'NONE', #1, #124 ) ;
#59 = ORIENTED_EDGE ( 'NONE', *, *, #293, .F. ) ;
#60 = CALENDAR_DATE ( 2020, 24, 12 ) ;
#61 = CARTESIAN_POINT ( 'NONE',  ( 3.000000000000000000, 0.000000000000000000, 0.000000000000000000 ) ) ;
#62 = PLANE ( 'NONE',  #289 ) ;
#63 = PERSON_AND_ORGANIZATION ( #287, #42 ) ;
#64 = DIRECTION ( 'NONE',  ( 0.000000000000000000, 0.000000000000000000, 1.000000000000000000 ) ) ;
#65 = CARTESIAN_POINT ( 'NONE',  ( -1.250000000000000222, 0.000000000000000000, 0.000000000000000000 ) ) ;
#66 = ORIENTED_EDGE ( 'NONE', *, *, #11, .F. ) ;
#67 = CIRCLE ( 'NONE', #274, 5.000000000000000000 ) ;
#68 = EDGE_CURVE ( 'NONE', #74, #5, #210, .T. ) ;
#69 = APPROVAL_PERSON_ORGANIZATION ( #63, #192, #238 ) ;
#70 = DIRECTION ( 'NONE',  ( 0.000000000000000000, 0.000000000000000000, -1.000000000000000000 ) ) ;
#71 =( LENGTH_UNIT ( ) NAMED_UNIT ( * ) SI_UNIT ( .MILLI., .METRE. ) );
#72 = DIRECTION ( 'NONE',  ( 1.000000000000000000, 0.000000000000000000, 0.000000000000000000 ) ) ;
#73 = ADVANCED_FACE ( 'NONE', ( #324 ), #321, .F. ) ;
#74 = VERTEX_POINT ( 'NONE', #188 ) ;
#75 = ADVANCED_FACE ( 'NONE', ( #213 ), #208, .T. ) ;
#76 = CIRCLE ( 'NONE', #148, 12.69999999999999929 ) ;
#77 = ADVANCED_FACE ( 'NONE', ( #33 ), #89, .F. ) ;
#78 = CALENDAR_DATE ( 2020, 24, 12 ) ;
#79 = CYLINDRICAL_SURFACE ( 'NONE', #49, 5.000000000000000888 ) ;
#80 = ORIENTED_EDGE ( 'NONE', *, *, #193, .F. ) ;
#81 = DIRECTION ( 'NONE',  ( 0.000000000000000000, 0.000000000000000000, -1.000000000000000000 ) ) ;
#82 = ORIENTED_EDGE ( 'NONE', *, *, #222, .F. ) ;
#83 = ADVANCED_FACE ( 'NONE', ( #165 ), #272, .T. ) ;
#84 = CARTESIAN_POINT ( 'NONE',  ( 1.250000000000000444, 0.000000000000000000, 0.000000000000000000 ) ) ;
#85 = ORIENTED_EDGE ( 'NONE', *, *, #193, .T. ) ;
#86 = CARTESIAN_POINT ( 'NONE',  ( -1.614212418857619014, 0.000000000000000000, 0.000000000000000000 ) ) ;
#87 = EDGE_CURVE ( 'NONE', #183, #91, #15, .T. ) ;
#88 = ORIENTED_EDGE ( 'NONE', *, *, #302, .T. ) ;
#89 = PLANE ( 'NONE',  #276 ) ;
#90 = DIRECTION ( 'NONE',  ( -1.000000000000000000, -0.000000000000000000, -0.000000000000000000 ) ) ;
#91 = VERTEX_POINT ( 'NONE', #288 ) ;
#92 = DIRECTION ( 'NONE',  ( 0.000000000000000000, 0.000000000000000000, -1.000000000000000000 ) ) ;
#93 = CALENDAR_DATE ( 2020, 24, 12 ) ;
#94 = CIRCLE ( 'NONE', #104, 5.000000000000000000 ) ;
#95 =( NAMED_UNIT ( * ) PLANE_ANGLE_UNIT ( ) SI_UNIT ( $, .RADIAN. ) );
#96 = LOCAL_TIME ( 9, 34, 26.00000000000000000, #281 ) ;
#97 = ORIENTED_EDGE ( 'NONE', *, *, #87, .T. ) ;
#98 = CC_DESIGN_PERSON_AND_ORGANIZATION_ASSIGNMENT ( #24, #223, ( #218 ) ) ;
#99 = ORIENTED_EDGE ( 'NONE', *, *, #68, .F. ) ;
#100 = DATE_AND_TIME ( #60, #152 ) ;
#101 = CARTESIAN_POINT ( 'NONE',  ( -3.000000000000000000, 6.123233995736766282E-16, -5.000000000000000000 ) ) ;
#102 = PERSON_AND_ORGANIZATION_ROLE ( 'classification_officer' ) ;
#103 = CARTESIAN_POINT ( 'NONE',  ( -1.614212418857619014, 0.000000000000000000, 0.000000000000000000 ) ) ;
#104 = AXIS2_PLACEMENT_3D ( 'NONE', #47, #110, #270 ) ;
#105 = CARTESIAN_POINT ( 'NONE',  ( -1.614212418857619014, 0.000000000000000000, 5.000000000000000888 ) ) ;
#106 = EDGE_LOOP ( 'NONE', ( #44, #166, #88, #206 ) ) ;
#107 = EDGE_CURVE ( 'NONE', #183, #230, #23, .T. ) ;
#108 = CLOSED_SHELL ( 'NONE', ( #83, #35, #29, #73, #118, #25, #129, #75, #16, #77 ) ) ;
#109 = DIRECTION ( 'NONE',  ( -1.000000000000000000, -0.000000000000000000, -0.000000000000000000 ) ) ;
#110 = DIRECTION ( 'NONE',  ( -1.000000000000000000, -0.000000000000000000, -0.000000000000000000 ) ) ;
#111 = DIRECTION ( 'NONE',  ( -1.000000000000000000, -0.000000000000000000, -0.000000000000000000 ) ) ;
#112 = DIRECTION ( 'NONE',  ( -0.000000000000000000, 0.000000000000000000, 1.000000000000000000 ) ) ;
#113 = CARTESIAN_POINT ( 'NONE',  ( -1.614212418857619014, 6.123233995736767268E-16, -5.000000000000000888 ) ) ;
#114 = EDGE_LOOP ( 'NONE', ( #237, #300 ) ) ;
#115 = CIRCLE ( 'NONE', #18, 12.69999999999999929 ) ;
#116 = DIRECTION ( 'NONE',  ( 0.000000000000000000, 0.000000000000000000, 1.000000000000000000 ) ) ;
#117 = ORIENTED_EDGE ( 'NONE', *, *, #107, .T. ) ;
#118 = ADVANCED_FACE ( 'NONE', ( #53 ), #79, .F. ) ;
#119 = ORIENTED_EDGE ( 'NONE', *, *, #222, .T. ) ;
#120 = AXIS2_PLACEMENT_3D ( 'NONE', #259, #34, #133 ) ;
#121 = EDGE_CURVE ( 'NONE', #230, #183, #334, .T. ) ;
#122 = APPROVAL_DATE_TIME ( #50, #167 ) ;
#123 = PERSON_AND_ORGANIZATION ( #287, #42 ) ;
#124 = VECTOR ( 'NONE', #330, 1000.000000000000000 ) ;
#125 = DIRECTION ( 'NONE',  ( 0.000000000000000000, 0.000000000000000000, 1.000000000000000000 ) ) ;
#126 = DIRECTION ( 'NONE',  ( 1.000000000000000000, 0.000000000000000000, 0.000000000000000000 ) ) ;
#127 = EDGE_CURVE ( 'NONE', #230, #41, #58, .T. ) ;
#128 = CARTESIAN_POINT ( 'NONE',  ( -1.614212418857619014, 0.000000000000000000, 0.000000000000000000 ) ) ;
#129 = ADVANCED_FACE ( 'NONE', ( #17, #220 ), #219, .F. ) ;
#130 = CARTESIAN_POINT ( 'NONE',  ( -1.250000000000000222, 0.000000000000000000, 5.000000000000000888 ) ) ;
#131 = ORIENTED_EDGE ( 'NONE', *, *, #87, .F. ) ;
#132 = CARTESIAN_POINT ( 'NONE',  ( 3.000000000000000000, 0.000000000000000000, 12.69999999999999929 ) ) ;
#133 = DIRECTION ( 'NONE',  ( 0.000000000000000000, 0.000000000000000000, 1.000000000000000000 ) ) ;
#134 = ORIENTED_EDGE ( 'NONE', *, *, #121, .F. ) ;
#135 = CARTESIAN_POINT ( 'NONE',  ( -1.614212418857619014, 6.123233995736767268E-16, -5.000000000000000888 ) ) ;
#136 = DIRECTION ( 'NONE',  ( -1.000000000000000000, 0.000000000000000000, -0.000000000000000000 ) ) ;
#137 = AXIS2_PLACEMENT_3D ( 'NONE', #46, #141, #243 ) ;
#138 = CYLINDRICAL_SURFACE ( 'NONE', #247, 5.000000000000000888 ) ;
#139 = DIRECTION ( 'NONE',  ( 0.000000000000000000, 0.000000000000000000, 1.000000000000000000 ) ) ;
#140 = ORIENTED_EDGE ( 'NONE', *, *, #232, .F. ) ;
#141 = DIRECTION ( 'NONE',  ( -1.000000000000000000, -0.000000000000000000, -0.000000000000000000 ) ) ;
#142 = DIRECTION ( 'NONE',  ( 1.000000000000000000, 0.000000000000000000, 0.000000000000000000 ) ) ;
#143 = ORIENTED_EDGE ( 'NONE', *, *, #293, .T. ) ;
#144 = ORIENTED_EDGE ( 'NONE', *, *, #121, .T. ) ;
#145 = ORIENTED_EDGE ( 'NONE', *, *, #302, .F. ) ;
#146 = EDGE_CURVE ( 'NONE', #271, #296, #76, .T. ) ;
#147 = LINE ( 'NONE', #172, #257 ) ;
#148 = AXIS2_PLACEMENT_3D ( 'NONE', #245, #301, #116 ) ;
#149 = CIRCLE ( 'NONE', #299, 12.69999999999999929 ) ;
#150 = PERSON_AND_ORGANIZATION ( #287, #42 ) ;
#151 = APPROVAL_ROLE ( '' ) ;
#152 = LOCAL_TIME ( 9, 34, 26.00000000000000000, #187 ) ;
#153 = PRODUCT_DEFINITION ( 'UNKNOWN', '', #218, #177 ) ;
#154 = CARTESIAN_POINT ( 'NONE',  ( 3.000000000000000000, 0.000000000000000000, 0.000000000000000000 ) ) ;
#155 = EDGE_LOOP ( 'NONE', ( #294, #285, #80, #145 ) ) ;
#156 = ORIENTED_EDGE ( 'NONE', *, *, #214, .F. ) ;
#157 = DIRECTION ( 'NONE',  ( -1.000000000000000000, -0.000000000000000000, -0.000000000000000000 ) ) ;
#158 = DIRECTION ( 'NONE',  ( 0.000000000000000000, 0.000000000000000000, 1.000000000000000000 ) ) ;
#159 = CARTESIAN_POINT ( 'NONE',  ( 3.000000000000000000, 12.69999999999999929, 0.000000000000000000 ) ) ;
#160 = SHAPE_DEFINITION_REPRESENTATION ( #278, #273 ) ;
#161 = DIRECTION ( 'NONE',  ( 0.000000000000000000, 0.000000000000000000, 1.000000000000000000 ) ) ;
#162 = DIRECTION ( 'NONE',  ( 0.000000000000000000, 0.000000000000000000, 1.000000000000000000 ) ) ;
#163 = ORIENTED_EDGE ( 'NONE', *, *, #207, .T. ) ;
#164 = VECTOR ( 'NONE', #109, 1000.000000000000000 ) ;
#165 = FACE_OUTER_BOUND ( 'NONE', #155, .T. ) ;
#166 = ORIENTED_EDGE ( 'NONE', *, *, #11, .T. ) ;
#167 = APPROVAL ( #52, 'UNSPECIFIED' ) ;
#168 = CIRCLE ( 'NONE', #269, 5.000000000000000000 ) ;
#169 = CC_DESIGN_APPROVAL ( #192, ( #253 ) ) ;
#170 = PRODUCT_RELATED_PRODUCT_CATEGORY ( 'detail', '', ( #175 ) ) ;
#171 = EDGE_LOOP ( 'NONE', ( #99, #256, #143, #32 ) ) ;
#172 = CARTESIAN_POINT ( 'NONE',  ( -1.614212418857619014, 1.555301434917138433E-15, -12.69999999999999929 ) ) ;
#173 = AXIS2_PLACEMENT_3D ( 'NONE', #61, #226, #198 ) ;
#174 = DATE_AND_TIME ( #93, #229 ) ;
#175 = PRODUCT ( 'QB-CTZHWP-10-852-M', 'QB-CTZHWP-10-852-M', '', ( #250 ) ) ;
#176 = PERSON_AND_ORGANIZATION_ROLE ( 'creator' ) ;
#177 = DESIGN_CONTEXT ( 'detailed design', #200, 'design' ) ;
#178 = PERSON_AND_ORGANIZATION ( #287, #42 ) ;
#179 = AXIS2_PLACEMENT_3D ( 'NONE', #103, #268, #161 ) ;
#180 = EDGE_CURVE ( 'NONE', #212, #271, #147, .T. ) ;
#181 = COORDINATED_UNIVERSAL_TIME_OFFSET ( 8, 0, .AHEAD. ) ;
#182 = DIRECTION ( 'NONE',  ( -1.000000000000000000, -0.000000000000000000, -0.000000000000000000 ) ) ;
#183 = VERTEX_POINT ( 'NONE', #28 ) ;
#184 = ORIENTED_EDGE ( 'NONE', *, *, #283, .T. ) ;
#185 = CARTESIAN_POINT ( 'NONE',  ( 3.000000000000000000, 1.555301434917138433E-15, -12.69999999999999929 ) ) ;
#186 = CARTESIAN_POINT ( 'NONE',  ( 3.000000000000000000, 0.000000000000000000, 0.000000000000000000 ) ) ;
#187 = COORDINATED_UNIVERSAL_TIME_OFFSET ( 8, 0, .AHEAD. ) ;
#188 = CARTESIAN_POINT ( 'NONE',  ( -1.250000000000000222, 6.123233995736767268E-16, -5.000000000000000888 ) ) ;
#189 = EDGE_LOOP ( 'NONE', ( #82, #263 ) ) ;
#190 = CARTESIAN_POINT ( 'NONE',  ( -1.250000000000000222, 5.000000000000000000, 0.000000000000000000 ) ) ;
#191 = ORIENTED_EDGE ( 'NONE', *, *, #107, .F. ) ;
#192 = APPROVAL ( #314, 'UNSPECIFIED' ) ;
#193 = EDGE_CURVE ( 'NONE', #296, #271, #115, .T. ) ;
#194 = EDGE_LOOP ( 'NONE', ( #131, #134, #311, #119 ) ) ;
#195 = CIRCLE ( 'NONE', #54, 5.000000000000000888 ) ;
#196 = CARTESIAN_POINT ( 'NONE',  ( -3.000000000000000000, 5.000000000000000000, 0.000000000000000000 ) ) ;
#197 = AXIS2_PLACEMENT_3D ( 'NONE', #205, #142, #315 ) ;
#198 = DIRECTION ( 'NONE',  ( 0.000000000000000000, 0.000000000000000000, 1.000000000000000000 ) ) ;
#199 = PERSON_AND_ORGANIZATION ( #287, #42 ) ;
#200 = APPLICATION_CONTEXT ( 'configuration controlled 3d designs of mechanical parts and assemblies' ) ;
#201 = EDGE_LOOP ( 'NONE', ( #191, #97, #184, #313 ) ) ;
#202 = DIRECTION ( 'NONE',  ( -1.000000000000000000, -0.000000000000000000, -0.000000000000000000 ) ) ;
#203 = VERTEX_POINT ( 'NONE', #130 ) ;
#204 = COORDINATED_UNIVERSAL_TIME_OFFSET ( 8, 0, .AHEAD. ) ;
#205 = CARTESIAN_POINT ( 'NONE',  ( -1.250000000000000222, 0.000000000000000000, 0.000000000000000000 ) ) ;
#206 = ORIENTED_EDGE ( 'NONE', *, *, #146, .F. ) ;
#207 = EDGE_CURVE ( 'NONE', #203, #74, #317, .T. ) ;
#208 = CYLINDRICAL_SURFACE ( 'NONE', #12, 12.69999999999999929 ) ;
#209 = FACE_OUTER_BOUND ( 'NONE', #171, .T. ) ;
#210 = LINE ( 'NONE', #135, #164 ) ;
#211 = CARTESIAN_POINT ( 'NONE',  ( -3.000000000000000000, 1.555301434917138433E-15, -12.69999999999999929 ) ) ;
#212 = VERTEX_POINT ( 'NONE', #185 ) ;
#213 = FACE_OUTER_BOUND ( 'NONE', #106, .T. ) ;
#214 = EDGE_CURVE ( 'NONE', #5, #331, #168, .T. ) ;
#215 = CARTESIAN_POINT ( 'NONE',  ( -3.000000000000000000, 0.000000000000000000, 5.000000000000000000 ) ) ;
#216 = DIRECTION ( 'NONE',  ( -1.000000000000000000, -0.000000000000000000, -0.000000000000000000 ) ) ;
#217 = AXIS2_PLACEMENT_3D ( 'NONE', #154, #284, #125 ) ;
#218 = PRODUCT_DEFINITION_FORMATION_WITH_SPECIFIED_SOURCE ( 'ANY', '', #175, .NOT_KNOWN. ) ;
#219 = PLANE ( 'NONE',  #251 ) ;
#220 = FACE_OUTER_BOUND ( 'NONE', #326, .T. ) ;
#221 = AXIS2_PLACEMENT_3D ( 'NONE', #335, #224, #126 ) ;
#222 = EDGE_CURVE ( 'NONE', #41, #91, #27, .T. ) ;
#223 = PERSON_AND_ORGANIZATION_ROLE ( 'design_supplier' ) ;
#224 = DIRECTION ( 'NONE',  ( 0.000000000000000000, 0.000000000000000000, 1.000000000000000000 ) ) ;
#225 = UNCERTAINTY_MEASURE_WITH_UNIT (LENGTH_MEASURE( 1.000000000000000082E-05 ), #71, 'distance_accuracy_value', 'NONE');
#226 = DIRECTION ( 'NONE',  ( -1.000000000000000000, -0.000000000000000000, -0.000000000000000000 ) ) ;
#227 = CC_DESIGN_PERSON_AND_ORGANIZATION_ASSIGNMENT ( #150, #249, ( #218 ) ) ;
#228 = DATE_TIME_ROLE ( 'creation_date' ) ;
#229 = LOCAL_TIME ( 9, 34, 26.00000000000000000, #181 ) ;
#230 = VERTEX_POINT ( 'NONE', #262 ) ;
#231 = CARTESIAN_POINT ( 'NONE',  ( -1.614212418857619014, 0.000000000000000000, 12.69999999999999929 ) ) ;
#232 = EDGE_CURVE ( 'NONE', #331, #5, #94, .T. ) ;
#233 = ORIENTED_EDGE ( 'NONE', *, *, #68, .T. ) ;
#234 = DATE_TIME_ROLE ( 'classification_date' ) ;
#235 = FACE_OUTER_BOUND ( 'NONE', #9, .T. ) ;
#236 = DIRECTION ( 'NONE',  ( 0.000000000000000000, 0.000000000000000000, 1.000000000000000000 ) ) ;
#237 = ORIENTED_EDGE ( 'NONE', *, *, #207, .F. ) ;
#238 = APPROVAL_ROLE ( '' ) ;
#239 = DIRECTION ( 'NONE',  ( -1.000000000000000000, -0.000000000000000000, -0.000000000000000000 ) ) ;
#240 = VECTOR ( 'NONE', #216, 1000.000000000000000 ) ;
#241 = DIRECTION ( 'NONE',  ( -0.000000000000000000, 0.000000000000000000, 1.000000000000000000 ) ) ;
#242 = CARTESIAN_POINT ( 'NONE',  ( 1.250000000000000222, 5.000000000000000000, 0.000000000000000000 ) ) ;
#243 = DIRECTION ( 'NONE',  ( 0.000000000000000000, 0.000000000000000000, 1.000000000000000000 ) ) ;
#244 = AXIS2_PLACEMENT_3D ( 'NONE', #84, #312, #158 ) ;
#245 = CARTESIAN_POINT ( 'NONE',  ( -3.000000000000000000, 0.000000000000000000, 0.000000000000000000 ) ) ;
#246 = CC_DESIGN_APPROVAL ( #266, ( #153 ) ) ;
#247 = AXIS2_PLACEMENT_3D ( 'NONE', #86, #239, #39 ) ;
#248 = EDGE_CURVE ( 'NONE', #36, #212, #303, .T. ) ;
#249 = PERSON_AND_ORGANIZATION_ROLE ( 'creator' ) ;
#250 = MECHANICAL_CONTEXT ( 'NONE', #19, 'mechanical' ) ;
#251 = AXIS2_PLACEMENT_3D ( 'NONE', #196, #72, #92 ) ;
#252 = APPROVAL_DATE_TIME ( #174, #266 ) ;
#253 = SECURITY_CLASSIFICATION ( '', '', #305 ) ;
#254 = DIRECTION ( 'NONE',  ( 0.000000000000000000, 0.000000000000000000, 1.000000000000000000 ) ) ;
#255 = CARTESIAN_POINT ( 'NONE',  ( -3.000000000000000000, 0.000000000000000000, 0.000000000000000000 ) ) ;
#256 = ORIENTED_EDGE ( 'NONE', *, *, #332, .T. ) ;
#257 = VECTOR ( 'NONE', #48, 1000.000000000000000 ) ;
#258 = CC_DESIGN_SECURITY_CLASSIFICATION ( #253, ( #218 ) ) ;
#259 = CARTESIAN_POINT ( 'NONE',  ( 3.000000000000000000, 0.000000000000000000, 0.000000000000000000 ) ) ;
#260 = EDGE_LOOP ( 'NONE', ( #4, #66 ) ) ;
#261 = DIRECTION ( 'NONE',  ( 0.000000000000000000, 0.000000000000000000, 1.000000000000000000 ) ) ;
#262 = CARTESIAN_POINT ( 'NONE',  ( 3.000000000000000000, 0.000000000000000000, 5.000000000000001776 ) ) ;
#263 = ORIENTED_EDGE ( 'NONE', *, *, #283, .F. ) ;
#264 = FACE_OUTER_BOUND ( 'NONE', #201, .T. ) ;
#265 = DIRECTION ( 'NONE',  ( -1.000000000000000000, -0.000000000000000000, -0.000000000000000000 ) ) ;
#266 = APPROVAL ( #306, 'UNSPECIFIED' ) ;
#267 = VECTOR ( 'NONE', #322, 1000.000000000000000 ) ;
#268 = DIRECTION ( 'NONE',  ( -1.000000000000000000, -0.000000000000000000, -0.000000000000000000 ) ) ;
#269 = AXIS2_PLACEMENT_3D ( 'NONE', #40, #90, #162 ) ;
#270 = DIRECTION ( 'NONE',  ( 0.000000000000000000, 0.000000000000000000, 1.000000000000000000 ) ) ;
#271 = VERTEX_POINT ( 'NONE', #211 ) ;
#272 = CYLINDRICAL_SURFACE ( 'NONE', #137, 12.69999999999999929 ) ;
#273 = ADVANCED_BREP_SHAPE_REPRESENTATION ( 'QB-CTZHWP-10-852-M', ( #37, #221 ), #333 ) ;
#274 = AXIS2_PLACEMENT_3D ( 'NONE', #298, #295, #236 ) ;
#275 = CALENDAR_DATE ( 2020, 24, 12 ) ;
#276 = AXIS2_PLACEMENT_3D ( 'NONE', #190, #297, #70 ) ;
#277 = DATE_AND_TIME ( #78, #96 ) ;
#278 = PRODUCT_DEFINITION_SHAPE ( 'NONE', 'NONE',  #153 ) ;
#279 = PERSON_AND_ORGANIZATION_ROLE ( 'design_owner' ) ;
#280 = AXIS2_PLACEMENT_3D ( 'NONE', #13, #111, #261 ) ;
#281 = COORDINATED_UNIVERSAL_TIME_OFFSET ( 8, 0, .AHEAD. ) ;
#282 = DIRECTION ( 'NONE',  ( 0.000000000000000000, 0.000000000000000000, 1.000000000000000000 ) ) ;
#283 = EDGE_CURVE ( 'NONE', #91, #41, #67, .T. ) ;
#284 = DIRECTION ( 'NONE',  ( -1.000000000000000000, -0.000000000000000000, -0.000000000000000000 ) ) ;
#285 = ORIENTED_EDGE ( 'NONE', *, *, #180, .T. ) ;
#286 = PERSON_AND_ORGANIZATION ( #287, #42 ) ;
#287 = PERSON ( 'UNSPECIFIED', 'UNSPECIFIED', 'UNSPECIFIED', ('UNSPECIFIED'), ('UNSPECIFIED'), ('UNSPECIFIED') ) ;
#288 = CARTESIAN_POINT ( 'NONE',  ( 1.250000000000000444, 6.123233995736766282E-16, -5.000000000000000000 ) ) ;
#289 = AXIS2_PLACEMENT_3D ( 'NONE', #159, #136, #241 ) ;
#290 = FACE_BOUND ( 'NONE', #21, .T. ) ;
#291 = CALENDAR_DATE ( 2020, 24, 12 ) ;
#292 = CARTESIAN_POINT ( 'NONE',  ( 1.250000000000000444, 0.000000000000000000, 5.000000000000000000 ) ) ;
#293 = EDGE_CURVE ( 'NONE', #203, #331, #8, .T. ) ;
#294 = ORIENTED_EDGE ( 'NONE', *, *, #248, .T. ) ;
#295 = DIRECTION ( 'NONE',  ( -1.000000000000000000, -0.000000000000000000, -0.000000000000000000 ) ) ;
#296 = VERTEX_POINT ( 'NONE', #325 ) ;
#297 = DIRECTION ( 'NONE',  ( 1.000000000000000000, 0.000000000000000000, 0.000000000000000000 ) ) ;
#298 = CARTESIAN_POINT ( 'NONE',  ( 1.250000000000000444, 0.000000000000000000, 0.000000000000000000 ) ) ;
#299 = AXIS2_PLACEMENT_3D ( 'NONE', #186, #265, #282 ) ;
#300 = ORIENTED_EDGE ( 'NONE', *, *, #332, .F. ) ;
#301 = DIRECTION ( 'NONE',  ( -1.000000000000000000, -0.000000000000000000, -0.000000000000000000 ) ) ;
#302 = EDGE_CURVE ( 'NONE', #36, #296, #31, .T. ) ;
#303 = CIRCLE ( 'NONE', #120, 12.69999999999999929 ) ;
#304 = LOCAL_TIME ( 9, 34, 26.00000000000000000, #309 ) ;
#305 = SECURITY_CLASSIFICATION_LEVEL ( 'unclassified' ) ;
#306 = APPROVAL_STATUS ( 'not_yet_approved' ) ;
#307 = PERSON_AND_ORGANIZATION ( #287, #42 ) ;
#308 = APPROVAL_PERSON_ORGANIZATION ( #123, #266, #56 ) ;
#309 = COORDINATED_UNIVERSAL_TIME_OFFSET ( 8, 0, .AHEAD. ) ;
#310 = CC_DESIGN_DATE_AND_TIME_ASSIGNMENT ( #38, #234, ( #253 ) ) ;
#311 = ORIENTED_EDGE ( 'NONE', *, *, #127, .T. ) ;
#312 = DIRECTION ( 'NONE',  ( -1.000000000000000000, -0.000000000000000000, -0.000000000000000000 ) ) ;
#313 = ORIENTED_EDGE ( 'NONE', *, *, #127, .F. ) ;
#314 = APPROVAL_STATUS ( 'not_yet_approved' ) ;
#315 = DIRECTION ( 'NONE',  ( 0.000000000000000000, 0.000000000000000000, -1.000000000000000000 ) ) ;
#316 = ORIENTED_EDGE ( 'NONE', *, *, #146, .T. ) ;
#317 = CIRCLE ( 'NONE', #197, 5.000000000000000888 ) ;
#318 = APPROVAL_DATE_TIME ( #100, #192 ) ;
#319 = APPROVAL_PERSON_ORGANIZATION ( #199, #167, #151 ) ;
#320 = CC_DESIGN_DATE_AND_TIME_ASSIGNMENT ( #277, #228, ( #153 ) ) ;
#321 = PLANE ( 'NONE',  #329 ) ;
#322 = DIRECTION ( 'NONE',  ( -1.000000000000000000, -0.000000000000000000, -0.000000000000000000 ) ) ;
#323 = CYLINDRICAL_SURFACE ( 'NONE', #280, 5.000000000000000888 ) ;
#324 = FACE_OUTER_BOUND ( 'NONE', #189, .T. ) ;
#325 = CARTESIAN_POINT ( 'NONE',  ( -3.000000000000000000, 0.000000000000000000, 12.69999999999999929 ) ) ;
#326 = EDGE_LOOP ( 'NONE', ( #85, #316 ) ) ;
#327 = CARTESIAN_POINT ( 'NONE',  ( -1.614212418857619014, 0.000000000000000000, 0.000000000000000000 ) ) ;
#328 = DIRECTION ( 'NONE',  ( 1.000000000000000000, 0.000000000000000000, 0.000000000000000000 ) ) ;
#329 = AXIS2_PLACEMENT_3D ( 'NONE', #242, #14, #112 ) ;
#330 = DIRECTION ( 'NONE',  ( -1.000000000000000000, -0.000000000000000000, -0.000000000000000000 ) ) ;
#331 = VERTEX_POINT ( 'NONE', #215 ) ;
#332 = EDGE_CURVE ( 'NONE', #74, #203, #195, .T. ) ;
#333 =( GEOMETRIC_REPRESENTATION_CONTEXT ( 3 ) GLOBAL_UNCERTAINTY_ASSIGNED_CONTEXT ( ( #225 ) ) GLOBAL_UNIT_ASSIGNED_CONTEXT ( ( #71, #95, #3 ) ) REPRESENTATION_CONTEXT ( 'NONE', 'WORKASPACE' ) );
#334 = CIRCLE ( 'NONE', #217, 5.000000000000001776 ) ;
#335 = CARTESIAN_POINT ( 'NONE',  ( 0.000000000000000000, 0.000000000000000000, 0.000000000000000000 ) ) ;
ENDSEC;
END-ISO-10303-21;
